Yiruma — River Flows in You (Sungha Jung)

4 января 2017 Комментарии
Капо на 2-ом ладу
|Intro|
e|------3--2--3--2--3-----3-----------------3--2--3--2--3-----3-------|
b|------------0--------3-------1~ -------0--------0--------3-------1~-|
g|---------0-----0-----0-------0~ -----0-------0-----0-----0-------0~-|
d|------2-----------------------------------2-------------------------|
a|------------------3-----------------------------------3-------------|
e|--------------------------------------------------------------------|

e|-----------3-2-3------2-3--------3--------------------------|
b|--------0----------0-----------3------3---------1--3--0-----|
g|------0------0~ ------0~ ----0------0------3/4-----0----2~ -|
d|-----------2-----2----------------------0----------0----0~ -|
a|--------------------------3~ ------3------------------------|
e|-------------------------------------------3----------------|

e|---------------------------------------------------------------|
b|-------------------------0---------0h1--3------1-0-------------|
g|---------0--0-------0h2-------0--|0|--------0--------2~ -------|
d|------0---h4------2---------2---|0|-------0--------|0|-----4~ -|
a|----------------2--------2-------------------------------------|
e|------------0---------------------------3----------------------|

e|-----------3-2-3------2-3--------3--------------------7--5------5h7p5-|
b|--------0----------0-----------3------3---------1--3------------3-----|
g|------0------0~ ------0~ ----0------0------3/4-----0------------------|
d|-----------2-----2----------------------0----------0-----0---(0)------|
a|--------------------------3~ ------3----------------------------------|
e|-------------------------------------------3--------------------------|

e|-3p2-3~
b|--------|
g|--------|
d|--------|
a|--------|
e|-----0~-|

e|---------------------------------------------------------------|
b|-------------------------0---------0h1--3------1-0-------------|
g|---------0--0-------0h2-------0--|0|--------0--------2~ ------2|
d|------0---h4------2---------2---|0|-------0--------|0|------0--|
a|----------------2--------2-------------------------------------|
e|------------0---------------------------3----------------------|

Описание

Ноты и табулатуры всемирно известной композиции River Flows in You в аранжировке от молодого гитариста из Кореи – Sungha Jung.

Комментариев пока нет

Добавить комментарий

Ваш e-mail не будет опубликован. Обязательные поля помечены *